johnMayer

How to play
"Your Body Is a Wonderland"
on guitar

Get Tuned:

The section markers in the video correlate to the section markers in the tab below to get you learning the song as quickly as possible.

Drop D tuning (D A D G B E)

Main/Verse/Chorus

e[-------------------------------------------------------------------]
b[-------------------------------------------------------------------]
g[----------10-----10--------10----10------10----10--------10----10--]
d[----------10-----10--------10----10------10----10--------10----10--]
a[------8------------------------------------------------------------]
d[----------------------10--------------8-------------10-------------]
				

Pre-Chorus

e[------------------8----------------------------8------------|---
b[------10----8---------------------10----8-------------------|---
g[------10----10--------------------10----10------------------|---
d[------------------------------------------------(repeat3x)--|---
a[------------------------------------------------------------|---
d[--8---------8-----------8-----10--------10------------------|---

---------------------------]
-3------5------6-----7-----]
-3------5------7-----9-----]
-5------7------8-----10----]
---------------------------]
-5------7------8-----10----]
				
Brett Manning's Singing Success Vocal Coaching Program

Bridge

e[-------------0----]
b[---6---------8----]
g[---7---------9----]
d[---10--------12---](repeat)
a[---------0--------]
d[---0--------------]
				

Fiddle with Dm9 while lead lick is playing.

[-----------------]
[-------5---------]
[-------5---------]
[-------3---------]
[-------5---------]
[-----------------]
				

Remember Mayertabs.com is here to help! Send an email to support@mayertabs.com and tell us what part of the song your having trouble with, or anything else you'd like to see added to this site. We'd love to hear your input!

Contact | All music by JOHN MAYER | All transcriptions by Mayertabs.com