johnMayer

How to play
"St. Patricks Day"
on guitar

Get Tuned:

Standard tuning (E A D G B E)

The section markers in the video correlate to the section markers in the tab below to get you learning the song as quickly as possible.

Verse

e[---0----0---0-----------7---7-----------]
b[---7----7---7-----5--5--5---5---5--5----]
g[---8----8---9-----6--6--6---5---4--4----]
d[---6----6---9-----6--6--6---5---4--4----]
a[---7------------------------------------]
e[---0----8---9-----6--5--5---5---4--3----]
               

Pre-Chorus

e[-----------------------]
b[---3---5---2---2---0---]
g[---4---6---2---2---2---](repeat 2x)
d[---4---6---0---0---0---]
a[-----------------------]
e[---4---5---2---3---3---]
               
Brett Manning's Singing Success Vocal Coaching Program

Chorus

e[---------------------9----------------------------------]
b[---10--9---12---10---9-------------10--9----8---7---0---]
g[---11--11--11---11---10--11--13----9---9----7---7---2---]
d[---9---9---9----9----9---9---10----11--9----9---7---2---]
a[-----------------------------------9---11---7---9---0---]
e[---0---0---11---10---9---11--13-------------------------]
               

Bridge

e[-------------------0-----|-----7---------------7-----------0---------------]
b[--10--9----5---7---7-----|-----5---5---3---3---5---5---3---3---5--8---10---]
g[--9---9----6---8---8-----|-----5---5---4---4---5---5---4---0---6--9---11---]
d[--11--9----7---9---6-----|-----5---4---4---3---5---4---4---2---7--10--12---]
a[--9---11-----------7-----|---------5---------------5-------2---------------]
e[-----------5---7---0-----|-----5-------3---4---5-------3---0---5--8---10---]
               

Remember Mayertabs.com is here to help! Send an email to support@mayertabs.com and tell us what part of the song your having trouble with, or anything else you'd like to see added to this site. We'd love to hear your input!

Contact | All music by JOHN MAYER | All transcriptions by Mayertabs.com