johnMayer

How to play
"No Such Thing"
on guitar

Get Tuned:

The section markers in the video correlate to the section markers in the tab below to get you learning the song as quickly as possible.

Standard Tuning (E A D G B E)

Verse

e[-----------------------------------]
b[---------------7-------------------]
g[---------13----9----14---12---11---]
d[---13----11----9----12---12---12---]
a[---11----0----------10---10---10---]
e[---0-----------9-------------------]
				
After the verse loops around to its end, he plays this chordy-lick:
e[-------------4----]
b[--1-----2----2----]
g[--3-----3----3----]
d[--2-----2----2----]
a[------------------]
e[--2-----2----2----]
(I'd advise fretting the low e-string with your thumb)
				
Brett Manning's Singing Success Vocal Coaching Program

Pre-Chorus

                                               G
e[--------------------------------------------3----------------------]
b[--------------------------------------------3----------------------]
g[--4---6---9---13-----4---6---9---13---------4----4---6---9---13----]
d[--2---4---7---11-----2---4---7---11---13----5----2---4---7---11--13]
a[--0---0---0---0------0---0---0---0----11----5----0---0---0---0---11]
e[--------------------------------------0-----3--------------------0-]
				

Chorus

e[------------------]
b[---3----7---------]
g[---5----9---------](repeat)
d[---5----9----13---]
a[-------------11---]
e[---5----9----0----]
				

Bridge

e[----0----0-----------|---3---]
b[----0----0-----------|---3---]
g[----2----6-(repeat)--|---4---]
d[----3----7-----------|---5---]
a[---------------------|---5---]
e[----1----5-----------|---3---]
				

Remember Mayertabs.com is here to help! Send an email to support@mayertabs.com and tell us what part of the song your having trouble with, or anything else you'd like to see added to this site. We'd love to hear your input!

Contact | All music by JOHN MAYER | All transcriptions by Mayertabs.com