johnMayer

How to play
"My Stupid Mouth"
on guitar

Get Tuned:

The section markers in the video correlate to the section markers in the tab below to get you learning the song as quickly as possible.

This one is pretty straight forward. Just a lot of sappy strumming.

Standard Tuning (E A D G B E)

Intro/ Verse:

       D     A/C#    D/F#    G    D/B   D/F#    G 
e[----------------------------------------------------]
b[-----3------2-------3------3-----3-----3------3-----]
g[-----2------2-------2------0-----2-----2------0-----]
d[-----0------2-------0------0-----0-----0------0-----](repeat 3x)
a[------------4--------------2-----2------------2-----]
e[--------------------2------3-----------2------3-----] 
			

Pre Chorus:

   
e[-------3----2----------------------------------------3------------
b[-------3----3--------5---------5--------11---10------3----3----3--
g[-------0----0--------6---------7--------12---11------0----2----0-- 
d[-------0----0--------4---------7--------10---10------0----0----2-- 
a[-------2----2--------X---------X--------X----X-------2----0----2--
e[-------3----3--------6---------7--------10---10------3----2----0--



--3--------0------]
--3----3---1----3-]
--0----2---0----0-]
--0----0---3----0-]
--2----0---3----2-]
--3----2---1------]
			
Brett Manning's Singing Success Vocal Coaching Program

Chorus:

         D     A/C#    D/F#    G    D/B   D/F#    G        
e[---------------------------------------------------------]
b[-------3------2-------3------3-----3-----3------3--------]
g[-------2------2-------2------0-----2-----2------0--------]
d[-------0------2-------0------0-----0-----0------0--------](repeat 3x)
a[--------------4--------------2-----2------------2--------]
e[----------------------2------3-----------2------3--------]
        D     A/C#    D/F#    G    D/B   D/F#   Gmin
-------------------------------------------------3--------]
--------3------2-------3------3-----3-----3------3--------]
--------2------2-------2------0-----2-----2------3--------]
--------0------2-------0------0-----0-----0------5--------]
---------------4--------------2-----2------------5--------]
-----------------------2------3-----------2------3--------]
			

Tag:

e[----------------------------------------------------5-------5---]
b[--------3------2-------3------3-----3-----3-------3---3-----3---]
g[--------2------2-------2------0-----2-----2-----3-------3---3---]
d[--------0------2-------0------0-----0-----0-----------------5---]
a[---------------4--------------2-----2---------------------------]
e[-----------------------2------3-----------2-----------------3---]

Happy Playing! Thanks for stopping by.

Remember Mayertabs.com is here to help! Send an email to support@mayertabs.com and tell us what part of the song your having trouble with, or anything else you'd like to see added to this site. We'd love to hear your input!

Contact | All music by JOHN MAYER | All transcriptions by Mayertabs.com