johnMayer

How to play
"City Love"
on guitar

Get Tuned:

Drop-D tuning (D A D G B E)

The chords played in the pre-chorus, chorus and bridge are voiced using a similar shape, so it should be easy to spot what is happening during those sections.

Verse

e[---------------------------------------------------------------
b[---------------------------------------------------------------
g[----------4----7----4------------------------------------------
d[-----7----5----7----5---7-----4--------4---4------4---4------4-
a[-----7------------------7-----5--------5---5------5---5------5-
d[----------------------------------7----5---5---0--5---5---0--5-

------------------------------------------------------------------
------------------------------------------------------------------
-----------4---7---4----------------------------------------------
------7----5---7---5---7----4-------4---4--------4---4--------4---
------7----------------7----5-------5---5--------5---5--------5---
------------------------------7-----0---0-----0--0---0-----0--0---

--------------------------------------------------------------------
--------------------------------------------------------------------
----------4----7----4-----------------------------------------------
-----7----5----7----5---7-----4----------4---4--------4---4-----4---
-----7------------------7-----5----------5---5--------5---5-----5---
----------------------------------7------5---5-----0--5---5--0--5---

------------------------------------------]
------------------------------------------]
-----------4---7---4----------------------]
------7----5---7---5---7----4---------4---]
------7----------------7----5---------5---]
--------------------------------7-----0---]
				
Brett Manning's Singing Success Vocal Coaching Program

Solo

e[------------------------------------------------------------------
b[---10-/-12---------10---------------------------------------------
g[-------------9/11-----11\9---p7-----9/11-\-10/11------7---9-------
d[---------------------------------9----------------/9--------/9----
a[------------------------------------------------------------------
d[------------------------------------------------------------------

---------------------------
---------------------------
---------7--9/11-\-10/11---
---7---9-------------------
---------------------------
---------------------------

-------------------------------------------------------------10-------
------10-----7--------------------------------------------------------
----------------7\6-----/9-/9-\-7-/-9-\-7----------7--/9h11------11---
---7------9----------0--/9-/9-\-7-/-9-\-7------7h9--------------------
----------------------------------------------------------------------
----------------------------------------------------------------------

---10h12b14---10--\------------10----13b14-10-12----10----------------
-------------------------10h12----12-------------13----13--10---------
--------------------------------------------------------------13\12---
----------------------------------------------------------------------
----------------------------------------------------------------------
----------------------------------------------------------------------

-----------------------
----12--10-------------
10--12--10h11----------
---------------12--\---
-----------------------
-----------------------

-----------------------------------------------------------------------
---10-------------10-------------10-----10----------------------10-----
---9h11----9------9------9-------9------9-----------------------9------
--------------12--11-----9-------12-----11p9---12---------------9h11---
----------------------------12-----------------12--------12------------
-----------------------------------------------------------------------
				

Remember Mayertabs.com is here to help! Send an email to support@mayertabs.com and tell us what part of the song your having trouble with, or anything else you'd like to see added to this site. We'd love to hear your input!

Contact | All music by JOHN MAYER | All transcriptions by Mayertabs.com