johnMayer

How to play
"3x5"
on guitar

Get Tuned:

Standard tuning (E A D G B E)

Capo 8th fret

Intro

e[-----0------0------0-----0--------] 
b[-----3------5------8-----7--------] 
g[-----0------0------0-----0--------](repeat 2x) 
d[-----2------4------7-----7--------] 
a[-----2------4------7-----6--------] 
e[-----0------0------0-----0--------] 
				

Verse

e[---0---0---0-----------------0----------------0---------------] 
b[---3---3---3----3---3--------3----------------3---3---3---3---] 
g[---0---0---0----0---0---2----0--(repeat 2x)---0---0---0---0---]
d[---2----------------2---1----2----------------2---------------] 
a[---2------------2---3---2----2----------------2-----------2---] 
e[---0---2---3-----------------0----------------0---2---3-------]
				

Pre-Chorus

1st time into intro
e[-------------------0-----------------0---0--] 
b[---3---3---3---3---1-----------------1---3--] 
g[---0---0---2---0---0-----------------0---2--] 
d[-------0---0-------3---(repeat 3x)---0---0--]
a[---3-----------3---------------------2------]
e[-------3---2-------1-----------------0------]


2nd time into chorus
e[-------------------0----------0---0---0--] 
b[---3---3---3---3---1----------0---1---1--] 
g[---0---0---2---0---2----------0---2---2--] 
d[-------0---0-------3---(x3)---2---3---0--] 
a[---3-----------3--------------2----------] 
e[-------3---2-------1----------0---1---2--] 
				
Brett Manning's Singing Success Vocal Coaching Program

Chorus

e[---3---0---3---0---]
b[---3---5---1---3---]
g[---0---5---0---0---]
d[---0---3---2---1---]
a[---2---5---0---0---]
e[---3---------------]
				

Outro

e[---------------------------------------------------5--------
b[-----1-----1--------0------0--------0----3----2---2---------
g[-------0-----0--------0------0----------0--------0----------
d[---------------2---------------1-------0--------------(x3)--
a[---0-0---0--------0-0---0---------------------0-------------
e[------------------------------------3-----------------------

--------------------------0---]
--1-----0-----------------0---]
----0-----0---0-----2-----0---]
----------------2-----1---4---]
--0-----2-----3-----2-----2---]
--------------------------0---]
				

Remember Mayertabs.com is here to help! Send an email to support@mayertabs.com and tell us what part of the song your having trouble with, or anything else you'd like to see added to this site. We'd love to hear your input!

Contact | All music by JOHN MAYER | All transcriptions by Mayertabs.com