johnMayer

How to play
"Clarity"
on guitar

Get Tuned:

The section markers in the video correlate to the section markers in the tab below to get you learning the song as quickly as possible.

Standard tuning (E A D G B E)

Main/Verse/Chorus

e[---------------------]
b[--------------5------]
g[------4-------6------]
d[------4-------4------]
a[------2-------5------]
e[------3--------------]
				

Pre-Chorus

e[-----------------------------------5--------------]
b[------2h3p2---2---2h3p2------2-----3--------------]
g[------2h4p2---2---2h4p2------2-----2---(repeat)---]
d[------------4---4-------4----------4--------------]
a[-----------------------------------2--------------]
e[------3----------------------2--------------------]
				

Bridge

e[--------------------------------------|-----------------------]
b[------10---10--------8---8------------|----6---6----------8---]
g[------9----7---------7---5---(repeat)-|----5---3-----4----7---]
d[------7----7---------5---5------------|----3---3-----4----5---]
a[------8----8---------6---6------------|----4---4-----2----6---]
e[--------------------------------------|--------------3--------]
				
Brett Manning's Singing Success Vocal Coaching Program

Remember Mayertabs.com is here to help! Send an email to support@mayertabs.com and tell us what part of the song your having trouble with, or anything else you'd like to see added to this site. We'd love to hear your input!

Contact | All music by JOHN MAYER | All transcriptions by Mayertabs.com