johnMayer

How to play
"Belief"
on guitar

Get Tuned:

Standard Tuning (E A D G B E)

The section markers in the video correlate to the section markers in the tab below to get you learning the song as quickly as possible.

Intro/Verse

e[---------------------------------------------------------------------
b[---------------------------------------------------------------------
g[-------------10----10---9---9----------7---7--5--5---------3---3-2-2-
d[---------------------------------------------------------------------
a[---------/12----12------10--10------/8---8----7--7------/5---5---3-3-
e[---10-10------------------------3-3-----------------6-6--------------

-----------------------------]
-----------------------------]
-----------10----10--12-12---]
-----------------------------]
-------/12----12-----13-13---]
-10-10-----------------------]
				

Pre-Chorus

e[---------------------------------------------------------------------
b[----------11----11-10-10-------------10----10--8-8---------8---8-6-6-
g[---------------------------------------------------------------------
d[------/12----12----10-10---------/10----10-----8-8------/8---8---7-7-
a[----------------------------3-3--------------------------------------
e[--3-3-----------------------------------------------1-1--------------

-------------------]
--------6--6-------]
-------------9-7---]
-----/7--7---------]
-1-1---------------]
-------------------]
				
Brett Manning's Singing Success Vocal Coaching Program

Chorus

e[-----------------------------------------]
b[-----------------------------------------]
g[------------------------------------7----]
d[-------12-------10------9-----------7----]
a[------------13-------10--------10---10---]
e[---10-----------------------8-------8----]

.::Guitar 2::. (end of song)
e[----------------------------]
b[------------------10--8--6--]
g[---10--9---12-----10--9--7--]
d[---12--10--10---------------]
a[----------------------------]
e[----------------------------]
				

Solo

e[------------------------------------------------------------------------
b[13s/15-----------------------10-13-10-----------------------------------
g[------14s\12-14s\12--10--12b/--------12b/-12-10-------------------------
d[-----------------------------------------------12-----------------------
a[--------------------------------------------------12s\10-12s\10-12s\10-8
e[------------------------------------------------------------------------

---------------------------------------------------------------
---------------------------------------------------------------
-----------------10---------------5s/7-5s/7-5s/7--5------------
--------------12----12-10---------------------------7s\5--3----
-10----10--12------------------------------------------------5-
----13---------------------------------------------------------

-------------------------------------------------
---------------------------12s/13-12s/13-12s/13--
---------------------------13s/14-13s/14-13s/14--
-3s/5-3s/5-3s/5-5b/\5-3--------------------------
-------------------------------------------------
-------------------------------------------------

-------------------------------------------13------------]
-------------------------------------13-15----15-13-15---]
---------10-12b/-12-10-12-10-12---14---------------------]
---10-12-------------------------------------------------]
12-------------------------------------------------------]
---------------------------------------------------------]
				

Remember Mayertabs.com is here to help! Send an email to support@mayertabs.com and tell us what part of the song your having trouble with, or anything else you'd like to see added to this site. We'd love to hear your input!

Contact | All music by JOHN MAYER | All transcriptions by Mayertabs.com